ISO-10303-21;
HEADER;
FILE_DESCRIPTION (( 'STEP AP214' ),
    '1' );
FILE_NAME ('FULLVAC BP1KF25.STEP',
    '2019-03-26T13:35:03',
    ( '' ),
    ( '' ),
    'SwSTEP 2.0',
    'SolidWorks 2017',
    '' );
FILE_SCHEMA (( 'AUTOMOTIVE_DESIGN' ));
ENDSEC;

DATA;
#1 = EDGE_CURVE ( 'NONE', #156, #156, #264, .T. ) ;
#2 = CARTESIAN_POINT ( 'NONE',  ( 5.000000000000001800, 6.123233995736760400E-016, 0.0000000000000000000 ) ) ;
#3 = DIRECTION ( 'NONE',  ( -1.224646799147350000E-016, 1.000000000000000000, 0.0000000000000000000 ) ) ;
#4 = AXIS2_PLACEMENT_3D ( 'NONE', #123, #8, #233 ) ;
#5 = VERTEX_POINT ( 'NONE', #239 ) ;
#6 = FACE_OUTER_BOUND ( 'NONE', #20, .T. ) ;
#7 =( LENGTH_UNIT ( ) NAMED_UNIT ( * ) SI_UNIT ( .MILLI., .METRE. ) );
#8 = DIRECTION ( 'NONE',  ( 1.000000000000000000, 1.224646799147350000E-016, 0.0000000000000000000 ) ) ;
#9 = CARTESIAN_POINT ( 'NONE',  ( 2.476513138864655400E-046, 1.011113220803298800E-030, 12.40424588727480200 ) ) ;
#10 = AXIS2_PLACEMENT_3D ( 'NONE', #163, #74, #267 ) ;
#11 = PRESENTATION_STYLE_ASSIGNMENT (( #13 ) ) ;
#12 = SURFACE_SIDE_STYLE ('',( #170 ) ) ;
#13 = SURFACE_STYLE_USAGE ( .BOTH. , #151 ) ;
#14 = VERTEX_POINT ( 'NONE', #180 ) ;
#15 = CIRCLE ( 'NONE', #281, 20.00000000000000000 ) ;
#16 = DIRECTION ( 'NONE',  ( 1.000000000000000000, 0.0000000000000000000, 0.0000000000000000000 ) ) ;
#17 = EDGE_CURVE ( 'NONE', #5, #5, #15, .T. ) ;
#18 = DIRECTION ( 'NONE',  ( 1.000000000000000000, 1.224646799147350000E-016, 0.0000000000000000000 ) ) ;
#19 = CARTESIAN_POINT ( 'NONE',  ( 5.000000000000000000, 13.10000000000000100, 0.0000000000000000000 ) ) ;
#20 = EDGE_LOOP ( 'NONE', ( #32 ) ) ;
#21 = UNCERTAINTY_MEASURE_WITH_UNIT (LENGTH_MEASURE( 1.000000000000000100E-005 ), #218, 'distance_accuracy_value', 'NONE');
#22 = PRODUCT_DEFINITION_FORMATION_WITH_SPECIFIED_SOURCE ( 'ANY', '', #149, .NOT_KNOWN. ) ;
#23 = AXIS2_PLACEMENT_3D ( 'NONE', #161, #51, #266 ) ;
#24 = EDGE_LOOP ( 'NONE', ( #59 ) ) ;
#25 = CARTESIAN_POINT ( 'NONE',  ( 1.801401161689882800, 38.51763809020500400, -19.25881904510250200 ) ) ;
#26 = CARTESIAN_POINT ( 'NONE',  ( 1.801401161689892400, -38.51763809020500400, -19.25881904510250200 ) ) ;
#27 = ORIENTED_EDGE ( 'NONE', *, *, #196, .F. ) ;
#28 = DIRECTION ( 'NONE',  ( -1.301042606982605300E-016, 1.000000000000000000, 0.0000000000000000000 ) ) ;
#29 = DIRECTION ( 'NONE',  ( -1.324216393875425100E-016, 1.000000000000000000, 0.0000000000000000000 ) ) ;
#30 = AXIS2_PLACEMENT_3D ( 'NONE', #186, #270, #69 ) ;
#31 = CARTESIAN_POINT ( 'NONE',  ( 0.03407417371094827200, 25.32612986475479000, -12.66306493237739500 ) ) ;
#32 = ORIENTED_EDGE ( 'NONE', *, *, #261, .F. ) ;
#33 = CARTESIAN_POINT ( 'NONE',  ( 0.01142320932989631500, 25.15706076493380300, -12.57853038246690100 ) ) ;
#34 = DIRECTION ( 'NONE',  ( 1.000000000000000000, 1.224646799147350000E-016, 0.0000000000000000000 ) ) ;
#35 = CARTESIAN_POINT ( 'NONE',  ( 3.064958237172950400E-015, -24.98352498643765100, -12.49176249321882500 ) ) ;
#36 = CIRCLE ( 'NONE', #58, 9.599999999999999600 ) ;
#37 =( NAMED_UNIT ( * ) SI_UNIT ( $, .STERADIAN. ) SOLID_ANGLE_UNIT ( ) );
#38 = MECHANICAL_DESIGN_GEOMETRIC_PRESENTATION_REPRESENTATION (  '', ( #54 ), #122 ) ;
#39 = DIRECTION ( 'NONE',  ( -1.000000000000000000, -1.224646799147350000E-016, 0.0000000000000000000 ) ) ;
#40 = CARTESIAN_POINT ( 'NONE',  ( 0.03407417372627472700, 12.66306493237329000, 0.0000000000000000000 ) ) ;
#41 = EDGE_LOOP ( 'NONE', ( #160 ) ) ;
#42 = CARTESIAN_POINT ( 'NONE',  ( -3.081487911019580100E-032, 12.53589838486220200, 0.0000000000000000000 ) ) ;
#43 = AXIS2_PLACEMENT_3D ( 'NONE', #134, #265, #3 ) ;
#44 = FACE_BOUND ( 'NONE', #206, .T. ) ;
#45 = EDGE_LOOP ( 'NONE', ( #27 ) ) ;
#46 = CARTESIAN_POINT ( 'NONE',  ( 2.296642442585008500, 2.812575816097691900E-016, -20.00000000000000400 ) ) ;
#47 = DIRECTION ( 'NONE',  ( -1.324216393875425100E-016, 1.000000000000000000, 0.0000000000000000000 ) ) ;
#48 = FACE_OUTER_BOUND ( 'NONE', #143, .T. ) ;
#49 = CARTESIAN_POINT ( 'NONE',  ( 2.767326987978955300, 39.99999999999999300, -19.99999999999999600 ) ) ;
#50 = CARTESIAN_POINT ( 'NONE',  ( 2.767326987978955300, 39.99999999999999300, 19.99999999999999600 ) ) ;
#51 = DIRECTION ( 'NONE',  ( -1.000000000000000000, -1.224646799147350000E-016, -0.0000000000000000000 ) ) ;
#52 = CARTESIAN_POINT ( 'NONE',  ( 1.801401161689887500, 2.206080166643848700E-016, -19.25881904510250600 ) ) ;
#53 = FACE_OUTER_BOUND ( 'NONE', #67, .T. ) ;
#54 = STYLED_ITEM ( 'NONE', ( #115 ), #256 ) ;
#55 =( BOUNDED_SURFACE ( )  B_SPLINE_SURFACE ( 3, 3, ( 
 ( #209, #31, #75, #60, #173, #98, #211 ),
 ( #236, #33, #79, #194, #234, #101, #146 ),
 ( #174, #250, #121, #144, #172, #35, #237 ),
 ( #103, #80, #254, #9, #106, #192, #255 ) ),
 .UNSPECIFIED., .F., .T., .F. ) 
 B_SPLINE_SURFACE_WITH_KNOTS ( ( 4, 4 ),
 ( 4, 3, 4 ),
 ( 0.0000000000000000000, 1.000000000000000000 ),
 ( 0.0000000000000000000, 0.5000000000000000000, 1.000000000000000000 ),
 .UNSPECIFIED. ) 
 GEOMETRIC_REPRESENTATION_ITEM ( )  RATIONAL_B_SPLINE_SURFACE ( (
 ( 1.000000000000000000, 0.3333333333333333100, 0.3333333333333333100, 1.000000000000000000, 0.3333333333333333100, 0.3333333333333333100, 1.000000000000000000),
 ( 0.9942965742492037000, 0.3314321914164012300, 0.3314321914164012300, 0.9942965742492037000, 0.3314321914164012300, 0.3314321914164012300, 0.9942965742492037000),
 ( 0.9942965742492037000, 0.3314321914164012300, 0.3314321914164012300, 0.9942965742492037000, 0.3314321914164012300, 0.3314321914164012300, 0.9942965742492037000),
 ( 1.000000000000000000, 0.3333333333333333100, 0.3333333333333333100, 1.000000000000000000, 0.3333333333333333100, 0.3333333333333333100, 1.000000000000000000) ) ) 
 REPRESENTATION_ITEM ( '' )  SURFACE ( )  );
#56 = CARTESIAN_POINT ( 'NONE',  ( 2.296642442585003600, 40.00000000000000000, -20.00000000000000000 ) ) ;
#57 = CARTESIAN_POINT ( 'NONE',  ( 1.923223286273257200, 2.355269241580201200E-016, 19.71346540353365700 ) ) ;
#58 = AXIS2_PLACEMENT_3D ( 'NONE', #199, #84, #215 ) ;
#59 = ORIENTED_EDGE ( 'NONE', *, *, #1, .T. ) ;
#60 = CARTESIAN_POINT ( 'NONE',  ( 0.03407417371095137300, 4.172882776871752400E-018, 12.66306493237739500 ) ) ;
#61 = ADVANCED_FACE ( 'NONE', ( #48, #91 ), #70, .T. ) ;
#62 =( NAMED_UNIT ( * ) PLANE_ANGLE_UNIT ( ) SI_UNIT ( $, .RADIAN. ) );
#63 = SURFACE_STYLE_FILL_AREA ( #108 ) ;
#64 = FACE_OUTER_BOUND ( 'NONE', #178, .T. ) ;
#65 = DIRECTION ( 'NONE',  ( 1.224646799147350000E-016, -1.000000000000000000, 0.0000000000000000000 ) ) ;
#66 = DIRECTION ( 'NONE',  ( -1.224646799147350000E-016, 1.000000000000000000, 0.0000000000000000000 ) ) ;
#67 = EDGE_LOOP ( 'NONE', ( #208 ) ) ;
#68 = COLOUR_RGB ( '',0.7450980392156862900, 0.7450980392156862900, 0.7450980392156862900 ) ;
#69 = DIRECTION ( 'NONE',  ( -1.541146571462892400E-016, 1.000000000000000000, 0.0000000000000000000 ) ) ;
#70 =( BOUNDED_SURFACE ( )  B_SPLINE_SURFACE ( 3, 3, ( 
 ( #263, #49, #50, #92, #113, #290, #183 ),
 ( #46, #56, #72, #244, #246, #116, #207 ),
 ( #225, #204, #132, #57, #190, #227, #247 ),
 ( #52, #25, #94, #271, #249, #26, #205 ) ),
 .UNSPECIFIED., .F., .T., .F. ) 
 B_SPLINE_SURFACE_WITH_KNOTS ( ( 4, 4 ),
 ( 4, 3, 4 ),
 ( 0.0000000000000000000, 1.000000000000000000 ),
 ( 0.0000000000000000000, 0.5000000000000000000, 1.000000000000000000 ),
 .UNSPECIFIED. ) 
 GEOMETRIC_REPRESENTATION_ITEM ( )  RATIONAL_B_SPLINE_SURFACE ( (
 ( 1.000000000000000000, 0.3333333333333333100, 0.3333333333333333100, 1.000000000000000000, 0.3333333333333333100, 0.3333333333333333100, 1.000000000000000000),
 ( 0.8622355601941535900, 0.2874118533980512000, 0.2874118533980512000, 0.8622355601941535900, 0.2874118533980512000, 0.2874118533980512000, 0.8622355601941535900),
 ( 0.8622355601941535900, 0.2874118533980512000, 0.2874118533980512000, 0.8622355601941535900, 0.2874118533980512000, 0.2874118533980512000, 0.8622355601941535900),
 ( 1.000000000000000000, 0.3333333333333333100, 0.3333333333333333100, 1.000000000000000000, 0.3333333333333333100, 0.3333333333333333100, 1.000000000000000000) ) ) 
 REPRESENTATION_ITEM ( '' )  SURFACE ( )  );
#71 = CARTESIAN_POINT ( 'NONE',  ( -1.519082002168776700E-015, 12.40424588727480200, -7.595410010843903200E-016 ) ) ;
#72 = CARTESIAN_POINT ( 'NONE',  ( 2.296642442585003600, 40.00000000000000000, 20.00000000000000000 ) ) ;
#73 = ORIENTED_EDGE ( 'NONE', *, *, #1, .F. ) ;
#74 = DIRECTION ( 'NONE',  ( 1.000000000000000000, 1.224646799147350000E-016, 0.0000000000000000000 ) ) ;
#75 = CARTESIAN_POINT ( 'NONE',  ( 0.03407417371094827200, 25.32612986475479000, 12.66306493237739500 ) ) ;
#76 = EDGE_CURVE ( 'NONE', #136, #136, #262, .T. ) ;
#77 = CARTESIAN_POINT ( 'NONE',  ( 5.000000000000002700, 6.123233995736768300E-016, 0.0000000000000000000 ) ) ;
#78 = EDGE_LOOP ( 'NONE', ( #203 ) ) ;
#79 = CARTESIAN_POINT ( 'NONE',  ( 0.01142320932989631500, 25.15706076493380300, 12.57853038246690100 ) ) ;
#80 = CARTESIAN_POINT ( 'NONE',  ( -3.038164004337552600E-015, 24.80849177454960100, -12.40424588727480100 ) ) ;
#81 = PRESENTATION_LAYER_ASSIGNMENT (  '', '', ( #54 ) ) ;
#82 = CARTESIAN_POINT ( 'NONE',  ( 2.500000000000000000, 9.599999999999999600, 0.0000000000000000000 ) ) ;
#83 = CYLINDRICAL_SURFACE ( 'NONE', #162, 20.00000000000000000 ) ;
#84 = DIRECTION ( 'NONE',  ( -1.000000000000000000, -1.224646799147350000E-016, -0.0000000000000000000 ) ) ;
#85 = CARTESIAN_POINT ( 'NONE',  ( 0.0000000000000000000, 0.0000000000000000000, 0.0000000000000000000 ) ) ;
#86 =( LENGTH_UNIT ( ) NAMED_UNIT ( * ) SI_UNIT ( .MILLI., .METRE. ) );
#87 = FACE_OUTER_BOUND ( 'NONE', #109, .T. ) ;
#88 = ORIENTED_EDGE ( 'NONE', *, *, #261, .T. ) ;
#89 = EDGE_CURVE ( 'NONE', #248, #248, #112, .T. ) ;
#90 = DIRECTION ( 'NONE',  ( -1.301042606982605300E-016, 1.000000000000000000, 0.0000000000000000000 ) ) ;
#91 = FACE_OUTER_BOUND ( 'NONE', #78, .T. ) ;
#92 = CARTESIAN_POINT ( 'NONE',  ( 2.767326987978960200, 3.388998138022520500E-016, 20.00000000000000000 ) ) ;
#93 = DIRECTION ( 'NONE',  ( 1.000000000000000000, 1.224646799147350000E-016, 0.0000000000000000000 ) ) ;
#94 = CARTESIAN_POINT ( 'NONE',  ( 1.801401161689882800, 38.51763809020500400, 19.25881904510250200 ) ) ;
#95 = CIRCLE ( 'NONE', #245, 13.10000000000000100 ) ;
#96 = FACE_OUTER_BOUND ( 'NONE', #41, .T. ) ;
#97 = AXIS2_PLACEMENT_3D ( 'NONE', #277, #191, #274 ) ;
#98 = CARTESIAN_POINT ( 'NONE',  ( 0.03407417371095447500, -25.32612986475479000, -12.66306493237739500 ) ) ;
#99 = ORIENTED_EDGE ( 'NONE', *, *, #76, .T. ) ;
#100 = CARTESIAN_POINT ( 'NONE',  ( 2.500000000000001300, 3.061616997868384100E-016, 0.0000000000000000000 ) ) ;
#101 = CARTESIAN_POINT ( 'NONE',  ( 0.01142320932990247900, -25.15706076493380300, -12.57853038246690100 ) ) ;
#102 = AXIS2_PLACEMENT_3D ( 'NONE', #2, #223, #47 ) ;
#103 = CARTESIAN_POINT ( 'NONE',  ( 0.0000000000000000000, 1.011113220803298800E-030, -12.40424588727480200 ) ) ;
#104 = PRODUCT_DEFINITION ( 'UNKNOWN', '', #22, #210 ) ;
#105 = CYLINDRICAL_SURFACE ( 'NONE', #97, 9.599999999999999600 ) ;
#106 = CARTESIAN_POINT ( 'NONE',  ( 3.038164004337552600E-015, -24.80849177454960100, 12.40424588727480100 ) ) ;
#107 = CIRCLE ( 'NONE', #10, 19.25881904510249900 ) ;
#108 = FILL_AREA_STYLE ('',( #284 ) ) ;
#109 = EDGE_LOOP ( 'NONE', ( #73 ) ) ;
#110 = APPLICATION_PROTOCOL_DEFINITION ( 'draft international standard', 'automotive_design', 1998, #176 ) ;
#111 = AXIS2_PLACEMENT_3D ( 'NONE', #42, #39, #65 ) ;
#112 = CIRCLE ( 'NONE', #30, 12.66306493237329000 ) ;
#113 = CARTESIAN_POINT ( 'NONE',  ( 2.767326987978964600, -39.99999999999999300, 19.99999999999999600 ) ) ;
#114 = CARTESIAN_POINT ( 'NONE',  ( -1.519082002168776700E-015, 12.40424588727480200, -7.595410010843903200E-016 ) ) ;
#115 = PRESENTATION_STYLE_ASSIGNMENT (( #175 ) ) ;
#116 = CARTESIAN_POINT ( 'NONE',  ( 2.296642442585012900, -40.00000000000000000, -20.00000000000000000 ) ) ;
#117 = CARTESIAN_POINT ( 'NONE',  ( -1.519082002168776700E-015, 12.40424588727480200, -24.80849177454960500 ) ) ;
#118 = CARTESIAN_POINT ( 'NONE',  ( 1.519082002168777300E-015, -12.40424588727480800, -24.80849177454959800 ) ) ;
#119 = ORIENTED_EDGE ( 'NONE', *, *, #89, .F. ) ;
#120 = DIRECTION ( 'NONE',  ( -1.351113590023817200E-016, 1.000000000000000000, 0.0000000000000000000 ) ) ;
#121 = CARTESIAN_POINT ( 'NONE',  ( -3.054240544038791900E-015, 24.98352498643765100, 12.49176249321882500 ) ) ;
#122 =( GEOMETRIC_REPRESENTATION_CONTEXT ( 3 ) GLOBAL_UNCERTAINTY_ASSIGNED_CONTEXT ( ( #279 ) ) GLOBAL_UNIT_ASSIGNED_CONTEXT ( ( #7, #232, #169 ) ) REPRESENTATION_CONTEXT ( 'NONE', 'WORKASPACE' ) );
#123 = CARTESIAN_POINT ( 'NONE',  ( 2.500000000000000000, 9.599999999999999600, 0.0000000000000000000 ) ) ;
#124 = CARTESIAN_POINT ( 'NONE',  ( 1.801401161677173700, 1.403843610846073700E-032, 6.103667873243799200E-034 ) ) ;
#125 = FACE_BOUND ( 'NONE', #202, .T. ) ;
#126 = APPLICATION_PROTOCOL_DEFINITION ( 'draft international standard', 'automotive_design', 1998, #154 ) ;
#127 = PRODUCT_CONTEXT ( 'NONE', #154, 'mechanical' ) ;
#128 = EDGE_CURVE ( 'NONE', #268, #268, #107, .T. ) ;
#129 =( GEOMETRIC_REPRESENTATION_CONTEXT ( 3 ) GLOBAL_UNCERTAINTY_ASSIGNED_CONTEXT ( ( #289 ) ) GLOBAL_UNIT_ASSIGNED_CONTEXT ( ( #86, #62, #37 ) ) REPRESENTATION_CONTEXT ( 'NONE', 'WORKASPACE' ) );
#130 = CLOSED_SHELL ( 'NONE', ( #283, #141, #145, #228, #61, #257, #253, #168, #193, #276 ) ) ;
#131 = FACE_OUTER_BOUND ( 'NONE', #184, .T. ) ;
#132 = CARTESIAN_POINT ( 'NONE',  ( 1.923223286273252600, 39.42693080706731500, 19.71346540353365700 ) ) ;
#133 = PLANE ( 'NONE',  #43 ) ;
#134 = CARTESIAN_POINT ( 'NONE',  ( 5.000000000000000000, 6.123233995736771200E-016, 0.0000000000000000000 ) ) ;
#135 = CARTESIAN_POINT ( 'NONE',  ( 3.750000000000000000, 4.592425496802570000E-016, 0.0000000000000000000 ) ) ;
#136 = VERTEX_POINT ( 'NONE', #285 ) ;
#137 = FACE_OUTER_BOUND ( 'NONE', #45, .T. ) ;
#138 = AXIS2_PLACEMENT_3D ( 'NONE', #85, #198, #16 ) ;
#139 = DIRECTION ( 'NONE',  ( 1.000000000000000000, 1.224646799147350000E-016, 0.0000000000000000000 ) ) ;
#140 = AXIS2_PLACEMENT_3D ( 'NONE', #135, #139, #29 ) ;
#141 = ADVANCED_FACE ( 'NONE', ( #96, #87 ), #157, .F. ) ;
#142 = PLANE ( 'NONE',  #4 ) ;
#143 = EDGE_LOOP ( 'NONE', ( #243 ) ) ;
#144 = CARTESIAN_POINT ( 'NONE',  ( 5.358846567079388000E-018, 1.011769490232848300E-030, 12.49176249321882500 ) ) ;
#145 = ADVANCED_FACE ( 'NONE', ( #131, #137 ), #83, .T. ) ;
#146 = CARTESIAN_POINT ( 'NONE',  ( 0.01142320932989939800, 1.398939674186151200E-018, -12.57853038246690300 ) ) ;
#147 = EDGE_CURVE ( 'NONE', #217, #217, #252, .T. ) ;
#148 = FILL_AREA_STYLE ('',( #272 ) ) ;
#149 = PRODUCT ( 'FULLVAC BP1KF25', 'FULLVAC BP1KF25', '', ( #127 ) ) ;
#150 = PRESENTATION_LAYER_ASSIGNMENT (  '', '', ( #197 ) ) ;
#151 = SURFACE_SIDE_STYLE ('',( #63 ) ) ;
#152 = FACE_BOUND ( 'NONE', #24, .T. ) ;
#153 = EDGE_LOOP ( 'NONE', ( #214 ) ) ;
#154 = APPLICATION_CONTEXT ( 'automotive_design' ) ;
#155 = EDGE_LOOP ( 'NONE', ( #88 ) ) ;
#156 = VERTEX_POINT ( 'NONE', #19 ) ;
#157 = CYLINDRICAL_SURFACE ( 'NONE', #140, 13.10000000000000100 ) ;
#158 =( GEOMETRIC_REPRESENTATION_CONTEXT ( 3 ) GLOBAL_UNCERTAINTY_ASSIGNED_CONTEXT ( ( #21 ) ) GLOBAL_UNIT_ASSIGNED_CONTEXT ( ( #218, #260, #259 ) ) REPRESENTATION_CONTEXT ( 'NONE', 'WORKASPACE' ) );
#159 = CARTESIAN_POINT ( 'NONE',  ( 2.767326987978962800, 3.388998138022528400E-016, 0.0000000000000000000 ) ) ;
#160 = ORIENTED_EDGE ( 'NONE', *, *, #220, .F. ) ;
#161 = CARTESIAN_POINT ( 'NONE',  ( 2.500000000000001300, 3.061616997868393500E-016, 0.0000000000000000000 ) ) ;
#162 = AXIS2_PLACEMENT_3D ( 'NONE', #167, #93, #28 ) ;
#163 = CARTESIAN_POINT ( 'NONE',  ( 1.801401161689886200, 2.206080166643846800E-016, 0.0000000000000000000 ) ) ;
#164 = ORIENTED_EDGE ( 'NONE', *, *, #89, .T. ) ;
#165 = AXIS2_PLACEMENT_3D ( 'NONE', #201, #18, #66 ) ;
#166 = CARTESIAN_POINT ( 'NONE',  ( -1.519082002168777100E-015, 12.40424588727480400, 24.80849177454960500 ) ) ;
#167 = CARTESIAN_POINT ( 'NONE',  ( 3.500000000000000000, 4.286263797015740000E-016, 0.0000000000000000000 ) ) ;
#168 = ADVANCED_FACE ( 'NONE', ( #6 ), #133, .T. ) ;
#169 =( NAMED_UNIT ( * ) SI_UNIT ( $, .STERADIAN. ) SOLID_ANGLE_UNIT ( ) );
#170 = SURFACE_STYLE_FILL_AREA ( #148 ) ;
#171 = ORIENTED_EDGE ( 'NONE', *, *, #17, .T. ) ;
#172 = CARTESIAN_POINT ( 'NONE',  ( 3.064958237172950400E-015, -24.98352498643765100, 12.49176249321882500 ) ) ;
#173 = CARTESIAN_POINT ( 'NONE',  ( 0.03407417371095447500, -25.32612986475479000, 12.66306493237739500 ) ) ;
#174 = CARTESIAN_POINT ( 'NONE',  ( 5.358846567079388000E-018, 1.011769490232848300E-030, -12.49176249321882500 ) ) ;
#175 = SURFACE_STYLE_USAGE ( .BOTH. , #12 ) ;
#176 = APPLICATION_CONTEXT ( 'automotive_design' ) ;
#177 = AXIS2_PLACEMENT_3D ( 'NONE', #77, #212, #278 ) ;
#178 = EDGE_LOOP ( 'NONE', ( #119 ) ) ;
#179 = CARTESIAN_POINT ( 'NONE',  ( 5.000000000000000000, 20.00000000000000000, 0.0000000000000000000 ) ) ;
#180 = CARTESIAN_POINT ( 'NONE',  ( 2.499999999999999600, 13.10000000000000100, 0.0000000000000000000 ) ) ;
#181 = CIRCLE ( 'NONE', #177, 20.00000000000000000 ) ;
#182 = PRODUCT_RELATED_PRODUCT_CATEGORY ( 'part', '', ( #149 ) ) ;
#183 = CARTESIAN_POINT ( 'NONE',  ( 2.767326987978960200, 3.388998138022520500E-016, -20.00000000000000000 ) ) ;
#184 = EDGE_LOOP ( 'NONE', ( #171 ) ) ;
#185 = DIRECTION ( 'NONE',  ( 1.000000000000000000, 1.224646799147350000E-016, 0.0000000000000000000 ) ) ;
#186 = CARTESIAN_POINT ( 'NONE',  ( 0.03407417372627667700, 4.172882778747504900E-018, 0.0000000000000000000 ) ) ;
#187 = CARTESIAN_POINT ( 'NONE',  ( 1.519082002168776100E-015, -12.40424588727479900, 24.80849177454960900 ) ) ;
#188 = VERTEX_POINT ( 'NONE', #240 ) ;
#189 = ORIENTED_EDGE ( 'NONE', *, *, #220, .T. ) ;
#190 = CARTESIAN_POINT ( 'NONE',  ( 1.923223286273261900, -39.42693080706731500, 19.71346540353365700 ) ) ;
#191 = DIRECTION ( 'NONE',  ( 1.000000000000000000, 1.224646799147350000E-016, 0.0000000000000000000 ) ) ;
#192 = CARTESIAN_POINT ( 'NONE',  ( 3.038164004337552600E-015, -24.80849177454960100, -12.40424588727480100 ) ) ;
#193 = ADVANCED_FACE ( 'NONE', ( #64, #269 ), #55, .T. ) ;
#194 = CARTESIAN_POINT ( 'NONE',  ( 0.01142320932989939800, 1.398939674186159400E-018, 12.57853038246690300 ) ) ;
#195 = EDGE_LOOP ( 'NONE', ( #99 ) ) ;
#196 = EDGE_CURVE ( 'NONE', #258, #258, #181, .T. ) ;
#197 = STYLED_ITEM ( 'NONE', ( #11 ), #238 ) ;
#198 = DIRECTION ( 'NONE',  ( 0.0000000000000000000, 0.0000000000000000000, 1.000000000000000000 ) ) ;
#199 = CARTESIAN_POINT ( 'NONE',  ( 5.000000000000000900, 6.123233995736769200E-016, 0.0000000000000000000 ) ) ;
#200 = EDGE_LOOP ( 'NONE', ( #273 ) ) ;
#201 = CARTESIAN_POINT ( 'NONE',  ( 5.000000000000000000, 13.10000000000000100, 0.0000000000000000000 ) ) ;
#202 = EDGE_LOOP ( 'NONE', ( #286 ) ) ;
#203 = ORIENTED_EDGE ( 'NONE', *, *, #128, .T. ) ;
#204 = CARTESIAN_POINT ( 'NONE',  ( 1.923223286273252600, 39.42693080706731500, -19.71346540353365700 ) ) ;
#205 = CARTESIAN_POINT ( 'NONE',  ( 1.801401161689887500, 2.206080166643848700E-016, -19.25881904510250600 ) ) ;
#206 = EDGE_LOOP ( 'NONE', ( #164 ) ) ;
#207 = CARTESIAN_POINT ( 'NONE',  ( 2.296642442585008500, 2.812575816097691900E-016, -20.00000000000000400 ) ) ;
#208 = ORIENTED_EDGE ( 'NONE', *, *, #76, .F. ) ;
#209 = CARTESIAN_POINT ( 'NONE',  ( 0.03407417371095137300, 4.172882776871744700E-018, -12.66306493237739500 ) ) ;
#210 = PRODUCT_DEFINITION_CONTEXT ( 'detailed design', #176, 'design' ) ;
#211 = CARTESIAN_POINT ( 'NONE',  ( 0.03407417371095137300, 4.172882776871744700E-018, -12.66306493237739500 ) ) ;
#212 = DIRECTION ( 'NONE',  ( 1.000000000000000000, 1.224646799147350000E-016, 0.0000000000000000000 ) ) ;
#213 = FACE_OUTER_BOUND ( 'NONE', #231, .T. ) ;
#214 = ORIENTED_EDGE ( 'NONE', *, *, #128, .F. ) ;
#215 = DIRECTION ( 'NONE',  ( -9.035018104045870700E-017, 1.000000000000000000, 0.0000000000000000000 ) ) ;
#216 = CARTESIAN_POINT ( 'NONE',  ( 1.801401161689886200, 2.206080166643846800E-016, -19.25881904510249900 ) ) ;
#217 = VERTEX_POINT ( 'NONE', #82 ) ;
#218 =( LENGTH_UNIT ( ) NAMED_UNIT ( * ) SI_UNIT ( .MILLI., .METRE. ) );
#219 = PLANE ( 'NONE',  #111 ) ;
#220 = EDGE_CURVE ( 'NONE', #14, #14, #95, .T. ) ;
#221 = COLOUR_RGB ( '',0.7450980392156862900, 0.7450980392156862900, 0.7450980392156862900 ) ;
#222 = FACE_OUTER_BOUND ( 'NONE', #153, .T. ) ;
#223 = DIRECTION ( 'NONE',  ( -1.000000000000000000, -1.224646799147350000E-016, -0.0000000000000000000 ) ) ;
#224 = ORIENTED_EDGE ( 'NONE', *, *, #196, .T. ) ;
#225 = CARTESIAN_POINT ( 'NONE',  ( 1.923223286273257200, 2.355269241580202200E-016, -19.71346540353365700 ) ) ;
#226 = CARTESIAN_POINT ( 'NONE',  ( 1.519082002168776700E-015, -12.40424588727480200, 2.278623003253170700E-015 ) ) ;
#227 = CARTESIAN_POINT ( 'NONE',  ( 1.923223286273261900, -39.42693080706731500, -19.71346540353365700 ) ) ;
#228 = ADVANCED_FACE ( 'NONE', ( #125, #241 ), #142, .T. ) ;
#229 = MECHANICAL_DESIGN_GEOMETRIC_PRESENTATION_REPRESENTATION (  '', ( #197 ), #158 ) ;
#230 = AXIS2_PLACEMENT_3D ( 'NONE', #124, #280, #120 ) ;
#231 = EDGE_LOOP ( 'NONE', ( #224 ) ) ;
#232 =( NAMED_UNIT ( * ) PLANE_ANGLE_UNIT ( ) SI_UNIT ( $, .RADIAN. ) );
#233 = DIRECTION ( 'NONE',  ( -1.224646799147350000E-016, 1.000000000000000000, 0.0000000000000000000 ) ) ;
#234 = CARTESIAN_POINT ( 'NONE',  ( 0.01142320932990247900, -25.15706076493380300, 12.57853038246690100 ) ) ;
#235 = FACE_OUTER_BOUND ( 'NONE', #155, .T. ) ;
#236 = CARTESIAN_POINT ( 'NONE',  ( 0.01142320932989939800, 1.398939674186151200E-018, -12.57853038246690300 ) ) ;
#237 = CARTESIAN_POINT ( 'NONE',  ( 5.358846567079388000E-018, 1.011769490232848300E-030, -12.49176249321882500 ) ) ;
#238 = ADVANCED_BREP_SHAPE_REPRESENTATION ( 'FULLVAC BP1KF25', ( #256, #138 ), #129 ) ;
#239 = CARTESIAN_POINT ( 'NONE',  ( 2.767326987978960200, 20.00000000000000000, 0.0000000000000000000 ) ) ;
#240 = CARTESIAN_POINT ( 'NONE',  ( 5.000000000000000000, 9.599999999999999600, 0.0000000000000000000 ) ) ;
#241 = FACE_OUTER_BOUND ( 'NONE', #242, .T. ) ;
#242 = EDGE_LOOP ( 'NONE', ( #189 ) ) ;
#243 = ORIENTED_EDGE ( 'NONE', *, *, #17, .F. ) ;
#244 = CARTESIAN_POINT ( 'NONE',  ( 2.296642442585008500, 2.812575816097690900E-016, 20.00000000000000400 ) ) ;
#245 = AXIS2_PLACEMENT_3D ( 'NONE', #100, #34, #251 ) ;
#246 = CARTESIAN_POINT ( 'NONE',  ( 2.296642442585012900, -40.00000000000000000, 20.00000000000000000 ) ) ;
#247 = CARTESIAN_POINT ( 'NONE',  ( 1.923223286273257200, 2.355269241580202200E-016, -19.71346540353365700 ) ) ;
#248 = VERTEX_POINT ( 'NONE', #40 ) ;
#249 = CARTESIAN_POINT ( 'NONE',  ( 1.801401161689892400, -38.51763809020500400, 19.25881904510250200 ) ) ;
#250 = CARTESIAN_POINT ( 'NONE',  ( -3.054240544038791900E-015, 24.98352498643765100, -12.49176249321882500 ) ) ;
#251 = DIRECTION ( 'NONE',  ( -1.324216393875425100E-016, 1.000000000000000000, 0.0000000000000000000 ) ) ;
#252 = CIRCLE ( 'NONE', #23, 9.599999999999999600 ) ;
#253 = ADVANCED_FACE ( 'NONE', ( #44, #222 ), #282, .T. ) ;
#254 = CARTESIAN_POINT ( 'NONE',  ( -3.038164004337552600E-015, 24.80849177454960100, 12.40424588727480100 ) ) ;
#255 = CARTESIAN_POINT ( 'NONE',  ( 0.0000000000000000000, 1.011113220803298800E-030, -12.40424588727480200 ) ) ;
#256 = MANIFOLD_SOLID_BREP ( '\X2\5BE69AD4\X0\1', #130 ) ;
#257 = ADVANCED_FACE ( 'NONE', ( #235, #288 ), #105, .T. ) ;
#258 = VERTEX_POINT ( 'NONE', #179 ) ;
#259 =( NAMED_UNIT ( * ) SI_UNIT ( $, .STERADIAN. ) SOLID_ANGLE_UNIT ( ) );
#260 =( NAMED_UNIT ( * ) PLANE_ANGLE_UNIT ( ) SI_UNIT ( $, .RADIAN. ) );
#261 = EDGE_CURVE ( 'NONE', #188, #188, #36, .T. ) ;
#262 =( BOUNDED_CURVE ( )  B_SPLINE_CURVE ( 3, ( #71, #166, #187, #226, #118, #117, #114 ),
 .UNSPECIFIED., .T., .T. ) 
 B_SPLINE_CURVE_WITH_KNOTS ( ( 4, 3, 4 ),
 ( 0.0000000000000000000, 0.5000000000000000000, 1.000000000000000000 ),
 .UNSPECIFIED. ) 
 CURVE ( )  GEOMETRIC_REPRESENTATION_ITEM ( )  RATIONAL_B_SPLINE_CURVE ( ( 1.000000000000000000, 0.3333333333333333700, 0.3333333333333333700, 1.000000000000000000, 0.3333333333333333700, 0.3333333333333333700, 1.000000000000000000 ) ) 
 REPRESENTATION_ITEM ( '' )  );
#263 = CARTESIAN_POINT ( 'NONE',  ( 2.767326987978960200, 3.388998138022520500E-016, -20.00000000000000000 ) ) ;
#264 = CIRCLE ( 'NONE', #102, 13.10000000000000100 ) ;
#265 = DIRECTION ( 'NONE',  ( 1.000000000000000000, 1.224646799147350000E-016, 0.0000000000000000000 ) ) ;
#266 = DIRECTION ( 'NONE',  ( -1.355252715606880500E-016, 1.000000000000000000, 0.0000000000000000000 ) ) ;
#267 = DIRECTION ( 'NONE',  ( 0.0000000000000000000, 0.0000000000000000000, -1.000000000000000000 ) ) ;
#268 = VERTEX_POINT ( 'NONE', #216 ) ;
#269 = FACE_OUTER_BOUND ( 'NONE', #195, .T. ) ;
#270 = DIRECTION ( 'NONE',  ( 1.000000000000000000, 1.224646799147350000E-016, 0.0000000000000000000 ) ) ;
#271 = CARTESIAN_POINT ( 'NONE',  ( 1.801401161689887500, 2.206080166643847700E-016, 19.25881904510250600 ) ) ;
#272 = FILL_AREA_STYLE_COLOUR ( '', #221 ) ;
#273 = ORIENTED_EDGE ( 'NONE', *, *, #147, .F. ) ;
#274 = DIRECTION ( 'NONE',  ( -1.355252715606880500E-016, 1.000000000000000000, 0.0000000000000000000 ) ) ;
#275 = PRODUCT_DEFINITION_SHAPE ( 'NONE', 'NONE',  #104 ) ;
#276 = ADVANCED_FACE ( 'NONE', ( #53 ), #219, .T. ) ;
#277 = CARTESIAN_POINT ( 'NONE',  ( 3.750000000000000000, 4.592425496802579900E-016, 0.0000000000000000000 ) ) ;
#278 = DIRECTION ( 'NONE',  ( -1.301042606982605300E-016, 1.000000000000000000, 0.0000000000000000000 ) ) ;
#279 = UNCERTAINTY_MEASURE_WITH_UNIT (LENGTH_MEASURE( 1.000000000000000100E-005 ), #7, 'distance_accuracy_value', 'NONE');
#280 = DIRECTION ( 'NONE',  ( 1.000000000000000000, 1.294817190439491400E-016, 5.629639958432571800E-018 ) ) ;
#281 = AXIS2_PLACEMENT_3D ( 'NONE', #159, #185, #90 ) ;
#282 = CONICAL_SURFACE ( 'NONE', #230, 19.25881904510590900, 1.308996939000000000 ) ;
#283 = ADVANCED_FACE ( 'NONE', ( #152, #213 ), #287, .T. ) ;
#284 = FILL_AREA_STYLE_COLOUR ( '', #68 ) ;
#285 = CARTESIAN_POINT ( 'NONE',  ( -1.519082002168776700E-015, 12.40424588727480200, -1.734723475976807100E-015 ) ) ;
#286 = ORIENTED_EDGE ( 'NONE', *, *, #147, .T. ) ;
#287 = PLANE ( 'NONE',  #165 ) ;
#288 = FACE_OUTER_BOUND ( 'NONE', #200, .T. ) ;
#289 = UNCERTAINTY_MEASURE_WITH_UNIT (LENGTH_MEASURE( 1.000000000000000100E-005 ), #86, 'distance_accuracy_value', 'NONE');
#290 = CARTESIAN_POINT ( 'NONE',  ( 2.767326987978964600, -39.99999999999999300, -19.99999999999999600 ) ) ;
#291 = SHAPE_DEFINITION_REPRESENTATION ( #275, #238 ) ;
ENDSEC;
END-ISO-10303-21;
